Make your own free website on Tripod.com

The Story


tuning: E A D G C E

Intro (once)

E|-----------3---------------3---------------3---------------3---------|
C|---------0-------0-------0-------0-------0-------0-------0-------0---|
G|-------4-------4---4---4-------4---4---4-------4---4---4-------4---4-|
D|---0h3---------------------------------------------------------------|
A|-------------------------------------0-------------------------------|
E|---------------------3-------------------------------0---------------|

Verse (Many Times, Yet often offbeat timing)

E|-------3---------------3---------------3---------------3---------|
C|-----0-------0-------0-------0-------0-------0-------0-------0---|
G|---4-------4---4---4-------4---4---4-------4---4---4-------4---4-|
D|-3---------------------------------------------------------------|
A|---------------------------------0-------------------------------|
E|-----------------3-------------------------------0---------------| 

Chorus

X3

E|-------3---------------3---------| E|-------3---------------3---------|
C|-----0-------0-------0-------0---| C|-----0-------0-------0-----------|
G|---4-------4---4---4-------4---4-| G|---4-------4---4---4-------------|
D|---------------------------------| D|---------------------------------|
A|-3---------------0---------------| A|-3---------------0---------------|
E|---------------------------------| E|---------------------------------| 

back to Ani Difranco (the first album) tabs