Make your own free website on Tripod.com
Sorry I Am


Tune to a sort of open D (D, A, D, G, A, D) 


Intro:
                           (let ring......)            *     *      *
(let ring......)
------------------------------------0-------------0----0----0----------------0----------(0)--------
----------------------------------------0---------0----0----0--------------------0---------(0)-----
-------------------------------0-----------------------------------------------------------------(0)-
---------------0----0-h-2----------------2-/-4-----2---0---------------0-----------0-------------
-----0-h-2------------------------------------------------------0-h-2------------------------------
------------------------------------------------------------------------------------------------------


*These are played very lightly and allowed to ring.
The notes in ( ) are only played the third time, right before the next section. The / between
notes means to slide. 


Play the above part three times, then go into these chords: 


          (E)              (F#) (G)
(arpeggiate)
------------0-----------------------0----0---------------------<12>----------------
------------0-----------------------0-------0-----------------<12>-----------------
------------0-----------------------0---------0--------------<12>-------0----0----
-------2----------2--/-4--/-5-----5-----------0-----------------------------0-------
-------2----------2--/-4--/-5-----5--------------------------------------------------
-------2----------2--/-4--/-5-----5----------------2^-p-0--------------------------
                                                                         **



          (arpeggiate)                         (arpeggiate)
(arpeggiate)
-------------<7>---------------------------<12>-----------------------------<7>---
------------<7>---------------------------<12>----------------------------<7>-----
-----------<7>-----------0-------------<12>-------0----0---------------<7>-----
-------------------------0-------------------------------0-----------------------------
----------------------------------------------------------------------------------------
--2^-p-0----------------------2^-p-0-------------------------2^-p-0---------------
     **                                    **
**


**Hit the note, bend it up 1/4 step, bend it back down, then pull it off. The notes in < > are
harmonics. 


Verses:


------------------------------------0----------------------------------------0-----------------------
----------------------------------------0----------------------------------------0-------------------
-------------------------------0----------------------------------------------------------------------
---------------0----0-h-2----------------2-/-4-----2---0---------------0-----------0--------------
-----0-h-2----------------------------------------------------------2--------------------------------
-------------------------------------------------------------------------------------------------------
                                       1.   I'm sorry I didn't sound more excited on the phone
                                       2.    And I don't know what it is about you



------------------------------------0----------------------------------------0-----------------------
----------------------------------------0----------------------------------------0-------------------
-------------------------------0----------------------------------------------------------------------
---------------0----0-h-2----------------2-/-4-----2---0---------------0-----------0--------------
-----0-h-2----------------------------------------------------------2-------------------------------
-------------------------------------------------------------------------------------------------------
                                        1.  I'm sorry that after all these years
                                        2.  I just know it's not what it was


------------------------------------0----------------------------------------0-----------0----------
----------------------------------------0----------------------------------------0-----------0------
-------------------------------0-----------------------------------------------------------------0---
---------------0----0-h-2----------------2-/-4-----2---0---------------0-----------0-------------
-----0-h-2---------------------------------------------------------2--------------------------------
------------------------------------------------------------------------------------------------------
                       1.  I've left you feeling unrequited and alone, brought you to
                       2.  I don't know why red fades before blue, it just


-----------0-----------0-------------0------0--------------------------0--------------0----------0-----------0----0----
-----------0-------------------------0------------------------------2---------2---------2-------2--------------0-------
--------2---------2---------2-------2------------------------------2---------2---------2-------2----------------------
1.  tears
2.  does


------------------------------------0----------------------------------------0-----------------------
----------------------------------------0----------------------------------------0-------------------
-------------------------------0----------------------------------------------------------------------
---------------0----0-h-2----------------2-/-4-----2---0---------------0-----------0--------------
-----0-h-2-----------------------------------------------------------2-------------------------------
-------------------------------------------------------------------------------------------------------
                      1.  I guess I never loved you
quite as well
                      2.   and I don't know what it is about me


------------------------------------0----------------------------------------0-----------------------
----------------------------------------0----------------------------------------0-------------------
-------------------------------0----------------------------------------------------------------------
----------------0---0-h-2----------------2-/-4-----2---0---------------0-----------0--------------
------0-h-2---------------------------------------------------------2--------------------------------
-------------------------------------------------------------------------------------------------------
                          1.              as    the     way  you     loved
me
                          2.               that I just can't keep still


------------------------------------0----------------------------------------------------------------
----------------------------------------0------------------------------------------------------------
-------------------------------0----------------------------------------------------------------------
---------------------0-h-2----------------2-/-4-----2---0---------------0--------------------------
----------------------------------------------------------------------2-------------------------------
-------------------------------------------------------------------------------------------------------
      1.                                    I guess I'll never really be
able to tell you how      sorry
      2.             I keep thinking someday I will make this all up to
you,  and maybe someday



(let ring)                                   (let ring)
------0----------0--------------0-------------------------0-----------------------------------0-------
------0------------0------------0-------------------------0-----------------------------------0-------
------0-------------------------0--------0-h-2-----------0-----------------------------------0-------
---2---------2---------2-------2------------------0------0-----------------------------------5-------
---2---------2---------2-------2-------------------------0--------------2-/-4-----4-/-5-----5-------
---2---------2---------2-------2-------------------------0---0-h-2----2-/-4-----4-/-5-----5--------
   1.                                           I am
   2.                                         I will


                                             (let ring)
(let ring)
--0----------0------0--------------0--------------------------------------0-------0-------------------
-----0------------------------------0--------------------------------------0------------0----------4---
--------4---------------------------0--------------------------------------4---------------0----0------
---------------------------0--------0--------------------------------------5----5----5-------5--------
---------------------------0--------0----------------2-/-4-----4-/-5-----5----------------------------
-----------------5--------0--------0------0-h-2----2-/-4-----4-/-5-----5----------------------------


    (arpeggiate & let ring)
-----------------------------
-----4-h-5------------------
-----0-----------------------
-----5-----------------------    (Repeat the verse section for verse 2.)
-----5-----------------------
------------------------------


REPEAT INTRO and slow down at the end (the third pass).
Then go back into the verse type thing for the outro:


Outro:
------------------------------------0----------------------------------------0-----------------------
----------------------------------------0----------------------------------------0-------------------
-------------------------------0----------------------------------------------------------------------
---------------0----0-h-2----------------2-/-4-----2---0---------------0-----------0--------------
-----0-h-2-----------------------------------------------------------2-------------------------------
-------------------------------------------------------------------------------------------------------
                                          I guess I never loved you quite as well


------------------------------------0----------------------------------------0-----------------------
----------------------------------------0----------------------------------------0-------------------
-------------------------------0----------------------------------------------------------------------
---------------0----0-h-2----------------2-/-4-----2---0---------------0-----------0--------------
-----0-h-2-----------------------------------------------------------2-------------------------------
-------------------------------------------------------------------------------------------------------
                                               as the way    you      loved
me


------------------------------------0-----------------------------------------------------------------
----------------------------------------0-------------------------------------------------------------
-------------------------------0----------------------------------------------------------------------
---------------0-----0-h-2----------------2-/-4-----2---0---------------0--------------------------
-----0-h-2-----------------------------------------------------------2-------------------------------
-------------------------------------------------------------------------------------------------------
                                           I guess I'll never really be able to tell you how         sorry



(let ring)                                   (let ring)
------0----------0--------------0-------------------------0-----------------------------------0-------
------0------------0------------0-------------------------0-----------------------------------0-------
------0-------------------------0--------0-h-2-----------0-----------------------------------0-------
---2---------2---------2-------2------------------0------0-----------------------------------5-------
---2---------2---------2-------2-------------------------0--------------2-/-4-----4-/-5-----5-------
---2---------2---------2-------2-------------------------0---0-h-2----2-/-4-----4-/-5-----5--------
                                           sorry I am


                                             (let ring)
(let ring)
--0----------0------0--------------0--------------------------------------0------0--------0------0---
-----0------------------------------0--------------------------------------0---------0-----------------
--------4---------------------------0--------------------------------------4------------4--------------
---------------------------0--------0--------------------------------------5----------------------------
---------------------------0--------0----------------2-/-4-----4-/-5-----5----------------------------
-----------------5--------0--------0------0-h-2----2-/-4-----4-/-5-----5--------------------5-------
                                  sorry    I          am


                                 (let ring)
(let ring)
--------------0-------------------------------------0------0--------0------0-------------------
--------------0-------------------------------------0---------0---------------------------------
--------------0-------------------------------------4------------4------------------------------
----0--------0--------------------------------------5-------------------------------------------
----0--------0----------------2-/-4-----4-/-5------5-------------------------------------------
----0--------0------0-h-2----2-/-4-----4-/-5-----5--------------------5----------------------
   sorry       I       am


                                 (let ring)
(let ring softly)
--------------0-------------------------------------0------0-------------------------------------
--------------0-------------------------------------0---------0--------4-h-5--5-p-4--4-h-5---
--------------0-------------------------------------4------------0-----0-------------------------
----0--------0--------------------------------------5------------------5-------------------------
----0--------0----------------2-/-4-----4-/-5------5------------------5------------------------
----0--------0------0-h-2----2-/-4-----4-/-5-----5--------------------------------------------
   sorry      I         am


Well, that's it. There may be some notes in there that seem out of place, but if you listen
close to the album I think you'll hear them. It's sounds pretty darn accurate when I play it,
but it is hard to get every freakin' note (guess I'm not perfect either). Feel free to send along
any corrections, comments, suggestions, requests, jokes, cool stuff, etc., but most of all
HAVE FUN with it in any way you can! 


Transcribbled by Jeremy Raub
terrapin@loop.com


Back to Living in Clip Tabs
Back to Not A Pretty Girl Tabs