Make your own free website on Tripod.com
Shameless


Tuning: Open E (Low to High): E B E G# B E

Main Riff (use slight variations)

e-|----------------------0--------------------------------------------
b-|------------------3-H-5--------------------------------------------
g#|------------X-X---3------------------------------------------------
e-|------------X-X----------X(slap guitar w/ thumb)-------------------
b-|------------X-X----------------------------------------------------
e-|-2^-P-0-----X-X----------------------------------------------------

Chorus (Listen to the song for strumming pattern)
   (Slide up from 3 to 8)
e-|-3--8--3--8------------0--0----------------------------------------
b-|-3--8--3--8------------0--0----------------------------------------
g#|-3--8--3--8-----then---3--8-a couple times-------------------------
e-|-3--8--3--8------------3--8----------------------------------------
b-|-3--8--3--8------------3--8----------------------------------------
e-|-3--8--3--8------------3--8----------------------------------------

The bridge is a variation of the intro
Notation guide
^ = bend
P = pull-off
H = hammer-on



Transcribed by Dave King E-mail my sister with any questions, requests, corrections or comments at 
DArcySmP@aol.com

version 2

tuning: EADGAD  low to high
 
THE VERSES:
                                             
D--------------------0----------------------------------------
A------------------------------------------------------------
G----------------------0-----------------------0-------------
D------------------------------------------------------------
A-------------9(s)10-------------------9(s)10-----------------
E--2(b/p)0-----------------2(b/p)0--------------------------


D--------------------------------------------0----------------
A--------------------0----------------------------------------
G----------------------0------------------------0------------
D------------------------------------------------------------
A-------------9(s)10-------------------9(s)10----------------
E--2(b/p)0-----------------2(b/p)0--------------------------

note: This riff appears in its several variations throughout the song.  The
above pattern of four variations is not strictly adhered to.

THE CHORUS PART

D--------0----------0----------0----
A-------10----------9----------3----
G--------0----------0----------0----
D--------0----------0----------0----
A-------10---------10----------3----
E-------------------------------------  (slide back up to "10")

  repeat above 3 times, then add:

D-------0---------0-------
A-------0---------3-------
G-------0---------0-------
D-------2---------0-------
A-------2---------3-------
E-------0------------------
   

THE "THEY'RE GONNA BE MAD AT US" BRIDGE THING:
                         (U)                (U) 
D------------------------------------------
A------------0------0----------------0----
G------------2------2----------------0----
D--------0(h)2------2----------------0----
A------------0------0----------------x----
E----------------------------0(h)3--------



transcribed by Mary Costigan with Leigh Marble assisting 



Back Living in Clip Tabs
Back to Dilate Tabs