Make your own free website on Tripod.com
Out of Range


tuning: GGCGCD

                                                               fingering
D-------------|-------------|-----------|------0-----0---|
C--------0---0|-----7---7---|------0---0|-0h2--2-----2---|  <-- 7th fret with
G-------------|-----0---0---|------0---0|-0----0-----0---|       index finger
C-------------|-------------|-----------|-0h2-----2------|       (measure 2)
G--9s10-------|-0h9---9-----|-0h5-------|-0-------0------|  <-- ring finger
G--9s10-------|-0h9---9-----|-0h5-------|-0-------0------|  <-- middle finger
                                                            (also use ring/middle for
                                                             the 2nd frets in measure 4)
"Just the thought of our bed..."

                         x3
D------------|-------------||------------|-----|-----|-----|----------|
C--0---------|-------------||--0---------|-----|-----|-----|----------|  
G-------7----|--12---12----||-------7----|-9---|-9---|-9---|--9---|     
C--2----7----|--12---12----||--2----7----|-9---|-9---|-9---|--9---|
G--2----5----|--9----x-----||--2----5----|-7---|-7---|-7---|--7-------|  
G--2----5----|--9----12----||--2----5----|-----|-----|-----|----------|
                                                                (harmonics)
"I was locked..."


Here is the above figure, with fingering information given after each note.
1 is index finger, 2 is middle, etc.
                         x3
D--------------|----------------||------------|------|-----|-----|------------|
C--0-----------|----------------||--0---------|------|-----|-----|------------|  
G--------7(4)--|--12(4)---12(4)-||-------7----|-9(4)-|-9---|-9---|-9--(3)-|     
C--2(1)--7(3)--|--12(3)---12(3)-||--2----7----|-9(3)-|-9---|-9---|-9--(3)-|
G--2(1)--5(1)--|--9(1)----x-----||--2----5----|-7(1)-|-7---|-7---|-7----------|  
G--2(1)--5(1)--|--9(1)----12(2)-||--2----5----|------|-----|-----|------------|
                                                                   (harmonics)



transcribed by Leigh Marble 


Back to Living in Clip Tabs
Back to Out of Range Tabs